quarta-feira, 24 de outubro de 2012

ARPEJO



http://www.youtube.com/bruno.arpejo

Um arpejo é um acorde no qual as notas são tocadas individualmente e em sucessão rápida.O toque do arpejo também é conhecido como sweep devido ao movimento de varredura feita pela palheta quando o movimento é executado. Vamos começar com o acorde de Am mostrado abaixo.


SE VOCE NAO SABE LER TABLATURAS CLIQUE AQUI !

|---0---|
|---1---|
|---2---|
|---2---|
|---0---|



..
Enquanto você mantém o acorde pressionado, as primeiras 5 notas devem ser tocadas com uma palhetada para baixo em uma longa varredura. Então toque as 4 notas restantes com a palheta para cima em uma varredura para cima.
.
E ||---------------0--------------------------||
B ||------------1-----1----------------------||
G ||---------2-----------2-------------------||
D ||------2-----------------2----------------||
A ||---0----------------------0--------------||
E ||-------------------------------------------||
..-----^--^--^--^--^--v--v-v--v-----

Agora, vamos tocar 2 acordes arpejados usando o Am e o C.
.
E ||---------------0----------------------0-----------------||
B ||------------1-----1---------------1-----1-------------||
G ||---------2-----------2---------0-----------0----------||
D ||------2-----------------2---2------------------2------||
A ||---0----------------------3-----------------------3----||
E ||---------------------------------------------------------||
.------^---^-^-^-^---v--v--v--v--^-^-^-^---v--v--v--v .